Make a blog

likeusaa333zz2

1 year ago

How Exactly To Read Guitar Tablature - Basics To Reading Guitar Tabs

Guitar Tab Basics

Something would be looked by a standard tablature staff like this:

e-------------------------------------------------

B-------------------------------------------------

G----...

If you don't know how to see musical notation, but lets say you desire to learn how to jam the brand new Drop Out Boys track in your guitar. You will first should try to learn just how to read guitar tablature. Because learning guitar tabs is very easy once the basics are known all by you, don't worry though.

Guitar Bill Fundamentals

A regular tab team would look something like this:

e-------------------------------------------------

B-------------------------------------------------

G-------------------------------------------------

D-------------------------------------------------

A-------------------------------------------------

E-------------------------------------------------

When you understand this, you have to see that each letter and line represent each chain on a guitar. Starting from the underside to the top they are:

E the 6th string (thickest)

A the 5th string

N the 4th string

G the 3rd string

W the 2nd line

Elizabeth the first string (thinnest)

Now you will dsicover there are numbers written to the the team. Each number represents what fret you press down and on what string. Browse here at the link close remove frame to discover the inner workings of it. In these loss example, each number is prearranged on the A string (5th string) one after another which tells you they should really be played one after another. The 0 ensures that you pluck the A string open (without moving on the string ),1 move to the 1st fret pluck, 2 move to the second fret, 3 move to the 3rd fret.

E-------------------------------------------------

B-------------------------------------------------

G-------------------------------------------------

D-------------------------------------------------

A-------------------------------------------------

E----0--1--2--3-----------------------------------

Chords are represented with numbers written on the top of each and every other. We found out about bass academy mumbai by searching books in the library.

This is what a C Major chord could look like:

E------------------------------------------------

B----1-------------------------------------------

G------------------------------------------------

D----2-------------------------------------------

A----3-------------------------------------------

E----0-------------------------------------------

You will discover that the first string (e), and the 3rd string (G) have no numbers, what this means is that you do not play these strings. They are in a fundamentally just muted and not played.

The largest disadvantage to tab is the the fact that you are not able to accurately define the length of time each not must be held for. The easiest way to figure this out is by listening to the specific song that you're trying to play. This is actually the easiest way to utilize tabs.